  0
SECTION
  2
HEADER
  9
$ACADVER
  1
AC1015
  9
$ACADMAINTVER
 70
     6
  9
$DWGCODEPAGE
  3
ANSI_1254
  9
$INSBASE
 10
0.0
 20
0.0
 30
0.0
  9
$EXTMIN
 10
0.0
 20
0.0
 30
0.0
  9
$EXTMAX
 10
279.4
 20
215.9
 30
0.0
  9
$LIMMIN
 10
0.0
 20
0.0
  9
$LIMMAX
 10
279.4
 20
215.9
  9
$ORTHOMODE
 70
     0
  9
$REGENMODE
 70
     1
  9
$FILLMODE
 70
     1
  9
$QTEXTMODE
 70
     0
  9
$MIRRTEXT
 70
     1
  9
$LTSCALE
 40
1.0
  9
$ATTMODE
 70
     1
  9
$TEXTSIZE
 40
3.5
  9
$TRACEWID
 40
1.0
  9
$TEXTSTYLE
  7
Standard
  9
$CLAYER
  8
0
  9
$CELTYPE
  6
ByLayer
  9
$CECOLOR
 62
   256
  9
$CELTSCALE
 40
1.0
  9
$DISPSILH
 70
     0
  9
$DIMSCALE
 40
1.0
  9
$DIMASZ
 40
3.5
  9
$DIMEXO
 40
1.0
  9
$DIMDLI
 40
3.75
  9
$DIMRND
 40
0.0
  9
$DIMDLE
 40
0.0
  9
$DIMEXE
 40
1.0
  9
$DIMTP
 40
0.0
  9
$DIMTM
 40
0.0
  9
$DIMTXT
 40
3.5
  9
$DIMCEN
 40
2.5
  9
$DIMTSZ
 40
0.0
  9
$DIMTOL
 70
     0
  9
$DIMLIM
 70
     0
  9
$DIMTIH
 70
     1
  9
$DIMTOH
 70
     1
  9
$DIMSE1
 70
     0
  9
$DIMSE2
 70
     0
  9
$DIMTAD
 70
     1
  9
$DIMZIN
 70
     0
  9
$DIMBLK
  1

  9
$DIMASO
 70
     1
  9
$DIMSHO
 70
     1
  9
$DIMPOST
  1

  9
$DIMAPOST
  1

  9
$DIMALT
 70
     0
  9
$DIMALTD
 70
     3
  9
$DIMALTF
 40
0.0393700787
  9
$DIMLFAC
 40
1.0
  9
$DIMTOFL
 70
     1
  9
$DIMTVP
 40
0.0
  9
$DIMTIX
 70
     0
  9
$DIMSOXD
 70
     0
  9
$DIMSAH
 70
     0
  9
$DIMBLK1
  1

  9
$DIMBLK2
  1

  9
$DIMSTYLE
  2
ISO-25
  9
$DIMCLRD
 70
     0
  9
$DIMCLRE
 70
     0
  9
$DIMCLRT
 70
     0
  9
$DIMTFAC
 40
1.0
  9
$DIMGAP
 40
1.524
  9
$DIMJUST
 70
     0
  9
$DIMSD1
 70
     0
  9
$DIMSD2
 70
     0
  9
$DIMTOLJ
 70
     0
  9
$DIMTZIN
 70
     0
  9
$DIMALTZ
 70
     0
  9
$DIMALTTZ
 70
     0
  9
$DIMUPT
 70
     0
  9
$DIMDEC
 70
     2
  9
$DIMTDEC
 70
     2
  9
$DIMALTU
 70
     2
  9
$DIMALTTD
 70
     3
  9
$DIMTXSTY
  7
Standard
  9
$DIMAUNIT
 70
     0
  9
$DIMADEC
 70
     2
  9
$DIMALTRND
 40
0.0
  9
$DIMAZIN
 70
     0
  9
$DIMDSEP
 70
    44
  9
$DIMATFIT
 70
     3
  9
$DIMFRAC
 70
     0
  9
$DIMLDRBLK
  1

  9
$DIMLUNIT
 70
     2
  9
$DIMLWD
 70
    -2
  9
$DIMLWE
 70
    -2
  9
$DIMTMOVE
 70
     0
  9
$LUNITS
 70
     2
  9
$LUPREC
 70
     2
  9
$SKETCHINC
 40
1.0
  9
$FILLETRAD
 40
10.0
  9
$AUNITS
 70
     0
  9
$AUPREC
 70
     2
  9
$MENU
  1
.
  9
$ELEVATION
 40
0.0
  9
$PELEVATION
 40
0.0
  9
$THICKNESS
 40
0.0
  9
$LIMCHECK
 70
     0
  9
$CHAMFERA
 40
0.0
  9
$CHAMFERB
 40
0.0
  9
$CHAMFERC
 40
0.0
  9
$CHAMFERD
 40
0.0
  9
$SKPOLY
 70
     0
  9
$TDCREATE
 40
2458985.665922766
  9
$TDUCREATE
 40
2458985.540922766
  9
$TDUPDATE
 40
2458985.665923056
  9
$TDUUPDATE
 40
2458985.540923056
  9
$TDINDWG
 40
0.0000000116
  9
$TDUSRTIMER
 40
0.0000000116
  9
$USRTIMER
 70
     1
  9
$ANGBASE
 50
0.0
  9
$ANGDIR
 70
     0
  9
$PDMODE
 70
     0
  9
$PDSIZE
 40
-1.0
  9
$PLINEWID
 40
0.0
  9
$SPLFRAME
 70
     0
  9
$SPLINETYPE
 70
     6
  9
$SPLINESEGS
 70
     8
  9
$HANDSEED
  5
D3
  9
$SURFTAB1
 70
     6
  9
$SURFTAB2
 70
     6
  9
$SURFTYPE
 70
     6
  9
$SURFU
 70
     6
  9
$SURFV
 70
     6
  9
$UCSBASE
  2

  9
$UCSNAME
  2

  9
$UCSORG
 10
0.0
 20
0.0
 30
0.0
  9
$UCSXDIR
 10
1.0
 20
0.0
 30
0.0
  9
$UCSYDIR
 10
0.0
 20
1.0
 30
0.0
  9
$UCSORTHOREF
  2

  9
$UCSORTHOVIEW
 70
     0
  9
$UCSORGTOP
 10
0.0
 20
0.0
 30
0.0
  9
$UCSORGBOTTOM
 10
0.0
 20
0.0
 30
0.0
  9
$UCSORGLEFT
 10
0.0
 20
0.0
 30
0.0
  9
$UCSORGRIGHT
 10
0.0
 20
0.0
 30
0.0
  9
$UCSORGFRONT
 10
0.0
 20
0.0
 30
0.0
  9
$UCSORGBACK
 10
0.0
 20
0.0
 30
0.0
  9
$PUCSBASE
  2

  9
$PUCSNAME
  2

  9
$PUCSORG
 10
0.0
 20
0.0
 30
0.0
  9
$PUCSXDIR
 10
1.0
 20
0.0
 30
0.0
  9
$PUCSYDIR
 10
0.0
 20
1.0
 30
0.0
  9
$PUCSORTHOREF
  2

  9
$PUCSORTHOVIEW
 70
     0
  9
$PUCSORGTOP
 10
0.0
 20
0.0
 30
0.0
  9
$PUCSORGBOTTOM
 10
0.0
 20
0.0
 30
0.0
  9
$PUCSORGLEFT
 10
0.0
 20
0.0
 30
0.0
  9
$PUCSORGRIGHT
 10
0.0
 20
0.0
 30
0.0
  9
$PUCSORGFRONT
 10
0.0
 20
0.0
 30
0.0
  9
$PUCSORGBACK
 10
0.0
 20
0.0
 30
0.0
  9
$USERI1
 70
     0
  9
$USERI2
 70
     0
  9
$USERI3
 70
     0
  9
$USERI4
 70
     0
  9
$USERI5
 70
     0
  9
$USERR1
 40
0.0
  9
$USERR2
 40
0.0
  9
$USERR3
 40
0.0
  9
$USERR4
 40
0.0
  9
$USERR5
 40
0.0
  9
$WORLDVIEW
 70
     1
  9
$SHADEDGE
 70
     3
  9
$SHADEDIF
 70
    70
  9
$TILEMODE
 70
     1
  9
$MAXACTVP
 70
    64
  9
$PINSBASE
 10
0.0
 20
0.0
 30
0.0
  9
$PLIMCHECK
 70
     0
  9
$PEXTMIN
 10
1.0000000000E+20
 20
1.0000000000E+20
 30
1.0000000000E+20
  9
$PEXTMAX
 10
-1.0000000000E+20
 20
-1.0000000000E+20
 30
-1.0000000000E+20
  9
$PLIMMIN
 10
0.0
 20
0.0
  9
$PLIMMAX
 10
420.0
 20
297.0
  9
$UNITMODE
 70
     0
  9
$VISRETAIN
 70
     1
  9
$PLINEGEN
 70
     0
  9
$PSLTSCALE
 70
     1
  9
$TREEDEPTH
 70
  3020
  9
$CMLSTYLE
  2
Standard
  9
$CMLJUST
 70
     0
  9
$CMLSCALE
 40
20.0
  9
$PROXYGRAPHICS
 70
     1
  9
$MEASUREMENT
 70
     1
  9
$CELWEIGHT
370
    -1
  9
$ENDCAPS
280
     0
  9
$JOINSTYLE
280
     0
  9
$LWDISPLAY
290
     1
  9
$INSUNITS
 70
     4
  9
$HYPERLINKBASE
  1

  9
$STYLESHEET
  1

  9
$XEDIT
290
     1
  9
$CEPSNTYPE
380
     0
  9
$PSTYLEMODE
290
     1
  9
$FINGERPRINTGUID
  2
{98b5bce8-b765-4ed4-b6b7-5dea565e89e6}
  9
$VERSIONGUID
  2
{FAEB1C32-E019-11D5-929B-00C0DF256EC4}
  9
$EXTNAMES
290
     1
  9
$PSVPSCALE
 40
0.0
  9
$OLESTARTUP
290
     0
  0
ENDSEC
  0
SECTION
  2
CLASSES
  0
CLASS
  1
ACDBDICTIONARYWDFLT
  2
AcDbDictionaryWithDefault
  3
ObjectDBX Classes
 90
        0
280
     0
281
     0
  0
CLASS
  1
VISUALSTYLE
  2
AcDbVisualStyle
  3
ObjectDBX Classes
 90
     4095
280
     0
281
     0
  0
CLASS
  1
MATERIAL
  2
AcDbMaterial
  3
ObjectDBX Classes
 90
     1153
280
     0
281
     0
  0
CLASS
  1
SCALE
  2
AcDbScale
  3
ObjectDBX Classes
 90
     1153
280
     0
281
     0
  0
CLASS
  1
TABLESTYLE
  2
AcDbTableStyle
  3
ObjectDBX Classes
 90
     4095
280
     0
281
     0
  0
CLASS
  1
MLEADERSTYLE
  2
AcDbMLeaderStyle
  3
ACDB_MLEADERSTYLE_CLASS
 90
     4095
280
     0
281
     0
  0
CLASS
  1
SUN
  2
AcDbSun
  3
SCENEOE
 90
     1153
280
     0
281
     0
  0
CLASS
  1
ACDBPLACEHOLDER
  2
AcDbPlaceHolder
  3
ObjectDBX Classes
 90
        0
280
     0
281
     0
  0
CLASS
  1
LAYOUT
  2
AcDbLayout
  3
ObjectDBX Classes
 90
        0
280
     0
281
     0
  0
ENDSEC
  0
SECTION
  2
TABLES
  0
TABLE
  2
VPORT
  5
8
330
0
100
AcDbSymbolTable
 70
     1
  0
VPORT
  5
29
330
8
100
AcDbSymbolTableRecord
100
AcDbViewportTableRecord
  2
*Active
 70
     0
 10
0.0
 20
0.0
 11
1.0
 21
1.0
 12
139.7
 22
107.95
 13
0.0
 23
0.0
 14
10.0
 24
10.0
 15
10.0
 25
10.0
 16
0.0
 26
0.0
 36
1.0
 17
0.0
 27
0.0
 37
0.0
 40
215.9
 41
1.2941176471
 42
50.0
 43
0.0
 44
0.0
 50
0.0
 51
0.0
 71
     0
 72
  2000
 73
     1
 74
     3
 75
     0
 76
     0
 77
     0
 78
     0
281
     0
 65
     1
110
0.0
120
0.0
130
0.0
111
1.0
121
0.0
131
0.0
112
0.0
122
1.0
132
0.0
 79
     0
146
0.0
  0
ENDTAB
  0
TABLE
  2
LTYPE
  5
5
330
0
100
AcDbSymbolTable
 70
     6
  0
LTYPE
  5
14
330
5
100
AcDbSymbolTableRecord
100
AcDbLinetypeTableRecord
  2
ByBlock
 70
     0
  3

 72
    65
 73
     0
 40
0.0
  0
LTYPE
  5
15
330
5
100
AcDbSymbolTableRecord
100
AcDbLinetypeTableRecord
  2
ByLayer
 70
     0
  3

 72
    65
 73
     0
 40
0.0
  0
LTYPE
  5
16
330
5
100
AcDbSymbolTableRecord
100
AcDbLinetypeTableRecord
  2
Continuous
 70
     0
  3
Solid line
 72
    65
 73
     0
 40
0.0
  0
LTYPE
  5
6E
330
5
100
AcDbSymbolTableRecord
100
AcDbLinetypeTableRecord
  2
HIDDEN
 70
     0
  3
Hidden __ __ __ __ __ __ __ __ __ __ __ __ __ __
 72
    65
 73
     2
 40
1.905
 49
1.27
 74
     0
 49
-0.635
 74
     0
  0
LTYPE
  5
6F
330
5
100
AcDbSymbolTableRecord
100
AcDbLinetypeTableRecord
  2
PHANTOM
 70
     0
  3
Phantom ______  __  __  ______  __  __  ______
 72
    65
 73
     6
 40
12.7
 49
6.35
 74
     0
 49
-1.27
 74
     0
 49
1.27
 74
     0
 49
-1.27
 74
     0
 49
1.27
 74
     0
 49
-1.27
 74
     0
  0
LTYPE
  5
70
330
5
100
AcDbSymbolTableRecord
100
AcDbLinetypeTableRecord
  2
CENTER
 70
     0
  3
Center ____ _ ____ _ ____ _ ____ _ ____ _ ____
 72
    65
 73
     4
 40
10.16
 49
6.35
 74
     0
 49
-1.27
 74
     0
 49
1.27
 74
     0
 49
-1.27
 74
     0
  0
LTYPE
  5
71
330
5
100
AcDbSymbolTableRecord
100
AcDbLinetypeTableRecord
  2
CENTERX2
 70
     0
  3
Center (2x) ________  __  ________  __  _____
 72
    65
 73
     4
 40
20.32
 49
12.7
 74
     0
 49
-2.54
 74
     0
 49
2.54
 74
     0
 49
-2.54
 74
     0
  0
LTYPE
  5
72
330
5
100
AcDbSymbolTableRecord
100
AcDbLinetypeTableRecord
  2
DOT2
 70
     0
  3
Dot (.5x) ........................................
 72
    65
 73
     2
 40
0.635
 49
0.0
 74
     0
 49
-0.635
 74
     0
  0
ENDTAB
  0
TABLE
  2
LAYER
  5
2
330
0
100
AcDbSymbolTable
 70
    17
  0
LAYER
  5
10
330
2
100
AcDbSymbolTableRecord
100
AcDbLayerTableRecord
  2
0
 70
     0
 62
     7
  6
Continuous
370
    -3
390
F
  0
LAYER
  5
73
330
2
100
AcDbSymbolTableRecord
100
AcDbLayerTableRecord
  2
FORMAT
 70
     0
 62
     7
  6
Continuous
370
    -3
390
F
  0
LAYER
  5
74
330
2
100
AcDbSymbolTableRecord
100
AcDbLayerTableRecord
  2
YARDIMCI_GEOMETRI
 70
     0
 62
    -6
  6
Continuous
290
     0
370
    -3
390
F
  0
LAYER
  5
75
330
2
100
AcDbSymbolTableRecord
100
AcDbLayerTableRecord
  2
SAYFA_CERCEVESI
 70
     0
 62
     7
  6
Continuous
370
    25
390
F
  0
LAYER
  5
76
330
2
100
AcDbSymbolTableRecord
100
AcDbLayerTableRecord
  2
ANTET
 70
     0
 62
     7
  6
Continuous
370
    -3
390
F
  0
LAYER
  5
77
330
2
100
AcDbSymbolTableRecord
100
AcDbLayerTableRecord
  2
OLCU
 70
     0
 62
   150
  6
Continuous
370
    -3
390
F
  0
LAYER
  5
78
330
2
100
AcDbSymbolTableRecord
100
AcDbLayerTableRecord
  2
METIN
 70
     0
 62
    96
  6
Continuous
370
    -3
390
F
  0
LAYER
  5
79
330
2
100
AcDbSymbolTableRecord
100
AcDbLayerTableRecord
  2
BALON
 70
     0
 62
     5
  6
Continuous
370
    -3
390
F
  0
LAYER
  5
7A
330
2
100
AcDbSymbolTableRecord
100
AcDbLayerTableRecord
  2
VURGU
 70
     0
 62
     7
  6
Continuous
370
    -3
390
F
  0
LAYER
  5
7B
330
2
100
AcDbSymbolTableRecord
100
AcDbLayerTableRecord
  2
SILIK
 70
     0
 62
     7
  6
Continuous
370
    -3
390
F
  0
LAYER
  5
7C
330
2
100
AcDbSymbolTableRecord
100
AcDbLayerTableRecord
  2
MODEL
 70
     0
 62
     7
  6
Continuous
370
    -3
390
F
  0
LAYER
  5
7D
330
2
100
AcDbSymbolTableRecord
100
AcDbLayerTableRecord
  2
DETAYLANDıRMA
 70
     0
 62
   190
  6
Continuous
370
    -3
390
F
  0
LAYER
  5
7E
330
2
100
AcDbSymbolTableRecord
100
AcDbLayerTableRecord
  2
TOLERANS
 70
     0
 62
   230
  6
Continuous
370
    -3
390
F
  0
LAYER
  5
7F
330
2
100
AcDbSymbolTableRecord
100
AcDbLayerTableRecord
  2
MERKEZ_CIZGILERI
 70
     0
 62
    30
  6
Continuous
370
    -3
390
F
  0
LAYER
  5
80
330
2
100
AcDbSymbolTableRecord
100
AcDbLayerTableRecord
  2
KESIT-DETAY_CIZGILERI
 70
     0
 62
     7
  6
Continuous
370
    -3
390
F
  0
LAYER
  5
81
330
2
100
AcDbSymbolTableRecord
100
AcDbLayerTableRecord
  2
\U+041E\U+0421\U+0415\U+0412\U+042B\U+0415
 70
     0
 62
     7
  6
Continuous
370
    -3
390
F
  0
LAYER
  5
82
330
2
100
AcDbSymbolTableRecord
100
AcDbLayerTableRecord
  2
\U+0412\U+041E\U+0414\U+042F\U+041D\U+042B\U+0415_\U+0417\U+041D\U+0410\U+041A\U+0418
 70
     0
 62
    11
  6
Continuous
370
    -3
390
F
  0
ENDTAB
  0
TABLE
  2
STYLE
  5
3
330
0
100
AcDbSymbolTable
 70
     1
  0
STYLE
  5
11
330
3
100
AcDbSymbolTableRecord
100
AcDbTextStyleTableRecord
  2
Standard
 70
     0
 40
0.0
 41
1.0
 50
0.0
 71
     0
 42
3.5
  3
txt
  4

  0
ENDTAB
  0
TABLE
  2
VIEW
  5
6
330
0
100
AcDbSymbolTable
 70
     0
  0
ENDTAB
  0
TABLE
  2
UCS
  5
7
330
0
100
AcDbSymbolTable
 70
     0
  0
ENDTAB
  0
TABLE
  2
APPID
  5
9
330
0
100
AcDbSymbolTable
 70
     1
  0
APPID
  5
12
330
9
100
AcDbSymbolTableRecord
100
AcDbRegAppTableRecord
  2
ACAD
 70
     0
  0
ENDTAB
  0
TABLE
  2
DIMSTYLE
  5
A
330
0
100
AcDbSymbolTable
 70
     1
100
AcDbDimStyleTable
  0
DIMSTYLE
105
27
330
A
100
AcDbSymbolTableRecord
100
AcDbDimStyleTableRecord
  2
ISO-25
 70
     0
 41
2.5
 42
0.625
 43
3.75
 44
1.25
 73
     0
 74
     0
 77
     1
 78
     8
140
2.5
141
2.5
143
0.0393700787
147
0.625
171
     3
172
     1
178
     0
271
     2
272
     2
274
     3
278
    44
283
     0
284
     8
340
11
  0
ENDTAB
  0
TABLE
  2
BLOCK_RECORD
  5
1
330
0
100
AcDbSymbolTable
 70
     3
  0
BLOCK_RECORD
  5
1F
330
1
100
AcDbSymbolTableRecord
100
AcDbBlockTableRecord
  2
*Model_Space
340
22
  0
BLOCK_RECORD
  5
1B
330
1
100
AcDbSymbolTableRecord
100
AcDbBlockTableRecord
  2
*Paper_Space
340
1E
  0
BLOCK_RECORD
  5
23
330
1
100
AcDbSymbolTableRecord
100
AcDbBlockTableRecord
  2
*Paper_Space0
340
26
  0
BLOCK_RECORD
  5
93
330
1
100
AcDbSymbolTableRecord
100
AcDbBlockTableRecord
  2
SW_CENTERMARKSYMBOL_0
340
0
102
{BLKREFS
331
9E
102
}
  0
BLOCK_RECORD
  5
A5
330
1
100
AcDbSymbolTableRecord
100
AcDbBlockTableRecord
  2
SW_CENTERMARKSYMBOL_1
340
0
102
{BLKREFS
331
B0
102
}
  0
ENDTAB
  0
ENDSEC
  0
SECTION
  2
BLOCKS
  0
BLOCK
  5
20
330
1F
100
AcDbEntity
  8
0
100
AcDbBlockBegin
  2
*Model_Space
 70
     0
 10
0.0
 20
0.0
 30
0.0
  3
*Model_Space
  1

  0
ENDBLK
  5
21
330
1F
100
AcDbEntity
  8
0
100
AcDbBlockEnd
  0
BLOCK
  5
1C
330
1B
100
AcDbEntity
 67
     1
  8
0
100
AcDbBlockBegin
  2
*Paper_Space
 70
     0
 10
0.0
 20
0.0
 30
0.0
  3
*Paper_Space
  1

  0
ENDBLK
  5
1D
330
1B
100
AcDbEntity
 67
     1
  8
0
100
AcDbBlockEnd
  0
BLOCK
  5
24
330
23
100
AcDbEntity
  8
0
100
AcDbBlockBegin
  2
*Paper_Space0
 70
     0
 10
0.0
 20
0.0
 30
0.0
  3
*Paper_Space0
  1

  0
ENDBLK
  5
25
330
23
100
AcDbEntity
  8
0
100
AcDbBlockEnd
  0
BLOCK
  5
94
330
93
100
AcDbEntity
  8
0
100
AcDbBlockBegin
  2
SW_CENTERMARKSYMBOL_0
 70
     0
 10
0.0
 20
0.0
 30
0.0
  3
SW_CENTERMARKSYMBOL_0
  1

  0
LINE
  5
96
330
93
100
AcDbEntity
  8
FORMAT
 62
     0
100
AcDbLine
 10
0.0
 20
0.0
 30
0.0
 11
0.0
 21
2.5
 31
0.0
  0
LINE
  5
97
330
93
100
AcDbEntity
  8
FORMAT
 62
     0
100
AcDbLine
 10
0.0
 20
0.0
 30
0.0
 11
-2.5
 21
0.0
 31
0.0
  0
LINE
  5
98
330
93
100
AcDbEntity
  8
FORMAT
 62
     0
100
AcDbLine
 10
0.0
 20
0.0
 30
0.0
 11
0.0
 21
-2.5
 31
0.0
  0
LINE
  5
99
330
93
100
AcDbEntity
  8
FORMAT
 62
     0
100
AcDbLine
 10
0.0
 20
0.0
 30
0.0
 11
2.5
 21
0.0
 31
0.0
  0
LINE
  5
9A
330
93
100
AcDbEntity
  8
FORMAT
 62
     0
100
AcDbLine
 10
0.0
 20
5.0
 30
0.0
 11
0.0
 21
47.5
 31
0.0
  0
LINE
  5
9B
330
93
100
AcDbEntity
  8
FORMAT
 62
     0
100
AcDbLine
 10
-5.0
 20
0.0
 30
0.0
 11
-47.5
 21
0.0
 31
0.0
  0
LINE
  5
9C
330
93
100
AcDbEntity
  8
FORMAT
 62
     0
100
AcDbLine
 10
0.0
 20
-5.0
 30
0.0
 11
0.0
 21
-47.5
 31
0.0
  0
LINE
  5
9D
330
93
100
AcDbEntity
  8
FORMAT
 62
     0
100
AcDbLine
 10
5.0
 20
0.0
 30
0.0
 11
47.5
 21
0.0
 31
0.0
  0
ENDBLK
  5
95
330
93
100
AcDbEntity
  8
0
100
AcDbBlockEnd
  0
BLOCK
  5
A6
330
A5
100
AcDbEntity
  8
0
100
AcDbBlockBegin
  2
SW_CENTERMARKSYMBOL_1
 70
     0
 10
0.0
 20
0.0
 30
0.0
  3
SW_CENTERMARKSYMBOL_1
  1

  0
LINE
  5
A8
330
A5
100
AcDbEntity
  8
FORMAT
 62
     0
100
AcDbLine
 10
0.0
 20
0.0
 30
0.0
 11
0.0
 21
2.5
 31
0.0
  0
LINE
  5
A9
330
A5
100
AcDbEntity
  8
FORMAT
 62
     0
100
AcDbLine
 10
0.0
 20
0.0
 30
0.0
 11
-2.5
 21
0.0
 31
0.0
  0
LINE
  5
AA
330
A5
100
AcDbEntity
  8
FORMAT
 62
     0
100
AcDbLine
 10
0.0
 20
0.0
 30
0.0
 11
0.0
 21
-2.5
 31
0.0
  0
LINE
  5
AB
330
A5
100
AcDbEntity
  8
FORMAT
 62
     0
100
AcDbLine
 10
0.0
 20
0.0
 30
0.0
 11
2.5
 21
0.0
 31
0.0
  0
LINE
  5
AC
330
A5
100
AcDbEntity
  8
FORMAT
 62
     0
100
AcDbLine
 10
0.0
 20
5.0
 30
0.0
 11
0.0
 21
47.5
 31
0.0
  0
LINE
  5
AD
330
A5
100
AcDbEntity
  8
FORMAT
 62
     0
100
AcDbLine
 10
-5.0
 20
0.0
 30
0.0
 11
-47.5
 21
0.0
 31
0.0
  0
LINE
  5
AE
330
A5
100
AcDbEntity
  8
FORMAT
 62
     0
100
AcDbLine
 10
0.0
 20
-5.0
 30
0.0
 11
0.0
 21
-47.5
 31
0.0
  0
LINE
  5
AF
330
A5
100
AcDbEntity
  8
FORMAT
 62
     0
100
AcDbLine
 10
5.0
 20
0.0
 30
0.0
 11
47.5
 21
0.0
 31
0.0
  0
ENDBLK
  5
A7
330
A5
100
AcDbEntity
  8
0
100
AcDbBlockEnd
  0
ENDSEC
  0
SECTION
  2
ENTITIES
  0
LINE
  5
83
330
1F
100
AcDbEntity
  8
0
  6
Continuous
 62
     7
370
    25
100
AcDbLine
 10
87.4476372503
 20
221.6001994798
 30
0.0
 11
87.4476372503
 21
70.9864668438
 31
0.0
  0
LINE
  5
84
330
1F
100
AcDbEntity
  8
0
  6
Continuous
 62
     7
370
    25
100
AcDbLine
 10
177.4476408266
 20
70.9864668438
 30
0.0
 11
177.4476408266
 21
221.6001994798
 31
0.0
  0
LINE
  5
85
330
1F
100
AcDbEntity
  8
0
  6
Continuous
 62
     7
370
    25
100
AcDbLine
 10
177.4476408266
 20
221.6001994798
 30
0.0
 11
177.4476408266
 21
283.9864738176
 31
0.0
  0
LINE
  5
86
330
1F
100
AcDbEntity
  8
0
  6
Continuous
 62
     7
370
    25
100
AcDbLine
 10
177.4476408266
 20
-37.0135359576
 30
0.0
 11
177.4476408266
 21
70.9864668438
 31
0.0
  0
LINE
  5
87
330
1F
100
AcDbEntity
  8
0
  6
Continuous
 62
     7
370
    25
100
AcDbLine
 10
87.4476372503
 20
70.9864668438
 30
0.0
 11
87.4476372503
 21
-37.0135359576
 31
0.0
  0
LINE
  5
88
330
1F
100
AcDbEntity
  8
0
  6
Continuous
 62
     7
370
    25
100
AcDbLine
 10
87.4476372503
 20
283.9864738176
 30
0.0
 11
87.4476372503
 21
221.6001994798
 31
0.0
  0
LWPOLYLINE
  5
89
330
1F
100
AcDbEntity
  8
0
  6
Continuous
 62
     7
370
    25
100
AcDbPolyline
 90
       73
 70
   128
 43
0.0
 10
132.4476390385
 20
247.6217396448
 10
129.240307748
 20
247.5227065275
 10
126.0573859565
 20
247.2264118383
 10
122.9230980628
 20
246.7350907514
 10
119.8612977989
 20
246.0524387548
 10
116.8952868559
 20
245.1837308595
 10
114.0476386302
 20
244.1355235765
 10
111.3400268607
 20
242.9158039281
 10
108.7930551969
 20
241.533870239
 10
106.4261100494
 20
240.0002129266
 10
104.2572031968
 20
238.3265145013
 10
102.302843263
 20
236.5255303571
 10
100.5779034697
 20
234.6109695623
 10
99.0955136024
 20
232.5973756502
 10
97.8669501149
 20
230.5000968168
 10
96.901567211
 20
228.3350773046
 10
96.2067148887
 20
226.1187977979
 10
95.7876756095
 20
223.8681264112
 10
95.6476382219
 20
221.6001994798
 10
95.7876756095
 20
219.3322725484
 10
96.2067148887
 20
217.081630964
 10
96.901567211
 20
214.8653514574
 10
97.8669501149
 20
212.700317044
 10
99.0955136024
 20
210.6030382106
 10
100.5779034697
 20
208.5894442985
 10
102.302843263
 20
206.6748686025
 10
104.2572031968
 20
204.8738844583
 10
106.4261100494
 20
203.2002158353
 10
108.7930551969
 20
201.6665585229
 10
111.3400268607
 20
200.2846248338
 10
114.0476386302
 20
199.0649051855
 10
116.8952868559
 20
198.0166979024
 10
119.8612977989
 20
197.147975106
 10
122.9230980628
 20
196.4653380106
 10
126.0573859565
 20
195.9740020225
 10
129.240307748
 20
195.6776924322
 10
132.4476390385
 20
195.578674216
 10
135.6549703289
 20
195.6776924322
 10
138.8378921204
 20
195.9740020225
 10
141.9721800141
 20
196.4653380106
 10
145.033980278
 20
197.147975106
 10
147.999991221
 20
198.0166979024
 10
150.8476394467
 20
199.0649051855
 10
153.5552512162
 20
200.2846248338
 10
156.10222288
 20
201.6665585229
 10
158.4691680275
 20
203.2002158353
 10
160.6380748801
 20
204.8738844583
 10
162.5924348139
 20
206.6748686025
 10
164.3173746072
 20
208.5894442985
 10
165.7997644745
 20
210.6030382106
 10
167.0283279621
 20
212.700317044
 10
167.9937108659
 20
214.8653514574
 10
168.6885631882
 20
217.081630964
 10
169.1076024674
 20
219.3322725484
 10
169.247639855
 20
221.6001994798
 10
169.1076024674
 20
223.8681264112
 10
168.6885631882
 20
226.1187977979
 10
167.9937108659
 20
228.3350773046
 10
167.0283279621
 20
230.5000968168
 10
165.7997644745
 20
232.5973756502
 10
164.3173746072
 20
234.6109695623
 10
162.5924348139
 20
236.5255303571
 10
160.6380748801
 20
238.3265145013
 10
158.4691680275
 20
240.0002129266
 10
156.10222288
 20
241.533870239
 10
153.5552512162
 20
242.9158039281
 10
150.8476394467
 20
244.1355235765
 10
147.999991221
 20
245.1837308595
 10
145.033980278
 20
246.0524387548
 10
141.9721800141
 20
246.7350907514
 10
138.8378921204
 20
247.2264118383
 10
135.6549703289
 20
247.5227065275
 10
132.4476390385
 20
247.6217396448
  0
LWPOLYLINE
  5
8A
330
1F
100
AcDbEntity
  8
0
  6
Continuous
 62
     7
370
    25
100
AcDbPolyline
 90
       81
 70
   128
 43
0.0
 10
132.4476390385
 20
253.4200198839
 10
128.9169797913
 20
253.3219106386
 10
125.4080878809
 20
253.0282683561
 10
121.9425979309
 20
252.5408215711
 10
118.541874481
 20
251.8626399229
 10
115.2268848621
 20
250.9978659341
 10
112.0180669479
 20
249.951864023
 10
108.9352029615
 20
248.7310416887
 10
105.997303059
 20
247.3429687212
 10
103.2224777393
 20
245.7961685846
 10
100.6278335356
 20
244.1002078245
 10
98.2293724321
 20
242.2655172536
 10
96.0418745183
 20
240.3034217546
 10
94.0788327955
 20
238.2260210702
 10
92.3523470067
 20
236.0461003969
 10
90.8730603062
 20
233.7771303842
 10
89.65009593
 20
231.4330585191
 10
88.6909938656
 20
229.0283985326
 10
88.0016624235
 20
226.5779323766
 10
87.5863596104
 20
224.0967698286
 10
87.4476372503
 20
221.6001994798
 10
87.5863596104
 20
219.1036589334
 10
88.0016624235
 20
216.6224963853
 10
88.6909938656
 20
214.1720302293
 10
89.65009593
 20
211.7673404405
 10
90.8730603062
 20
209.4232983778
 10
92.3523470067
 20
207.1543134639
 10
94.0788327955
 20
204.9744076917
 10
96.0418745183
 20
202.8969921062
 10
98.2293724321
 20
200.9348966072
 10
100.6278335356
 20
199.1002060363
 10
103.2224777393
 20
197.4042452762
 10
105.997303059
 20
195.8574451396
 10
108.9352029615
 20
194.469357271
 10
112.0180669479
 20
193.2485498378
 10
115.2268848621
 20
192.2025479267
 10
118.541874481
 20
191.3377739379
 10
121.9425979309
 20
190.6595922897
 10
125.4080878809
 20
190.1721604059
 10
128.9169797913
 20
189.8784883211
 10
132.4476390385
 20
189.7804088781
 10
135.9782982856
 20
189.8784883211
 10
139.487190196
 20
190.1721604059
 10
142.952680146
 20
190.6595922897
 10
146.3534035959
 20
191.3377739379
 10
149.6683932148
 20
192.2025479267
 10
152.877211129
 20
193.2485498378
 10
155.9600751155
 20
194.469357271
 10
158.8979750179
 20
195.8574451396
 10
161.6728003376
 20
197.4042452762
 10
164.2674445413
 20
199.1002060363
 10
166.6659056448
 20
200.9348966072
 10
168.8534035586
 20
202.8969921062
 10
170.8164452814
 20
204.9744076917
 10
172.5429310702
 20
207.1543134639
 10
174.0222177707
 20
209.4232983778
 10
175.2451821469
 20
211.7673404405
 10
176.2042842113
 20
214.1720302293
 10
176.8936156534
 20
216.6224963853
 10
177.3089184665
 20
219.1036589334
 10
177.4476408266
 20
221.6001994798
 10
177.3089184665
 20
224.0967698286
 10
176.8936156534
 20
226.5779323766
 10
176.2042842113
 20
229.0283985326
 10
175.2451821469
 20
231.4330585191
 10
174.0222177707
 20
233.7771303842
 10
172.5429310702
 20
236.0461003969
 10
170.8164452814
 20
238.2260210702
 10
168.8534035586
 20
240.3034217546
 10
166.6659056448
 20
242.2655172536
 10
164.2674445413
 20
244.1002078245
 10
161.6728003376
 20
245.7961685846
 10
158.8979750179
 20
247.3429687212
 10
155.9600751155
 20
248.7310416887
 10
152.877211129
 20
249.951864023
 10
149.6683932148
 20
250.9978659341
 10
146.3534035959
 20
251.8626399229
 10
142.952680146
 20
252.5408215711
 10
139.487190196
 20
253.0282683561
 10
135.9782982856
 20
253.3219106386
 10
132.4476390385
 20
253.4200198839
  0
ELLIPSE
  5
8B
330
1F
100
AcDbEntity
  8
0
  6
Continuous
 62
     7
370
    25
100
AcDbEllipse
 10
132.4476390385
 20
70.9864640424
 30
0.0
 11
45.0
 21
0.0
 31
0.0
210
0.0
220
0.0
230
1.0
 40
0.4142135624
 41
3.141592653589792
 42
6.283185307179586
  0
LINE
  5
8C
330
1F
100
AcDbEntity
  8
0
  6
Continuous
 62
     7
370
    25
100
AcDbLine
 10
87.4476372503
 20
-37.0135359576
 30
0.0
 11
177.4476408266
 21
-37.0135359576
 31
0.0
  0
LINE
  5
8D
330
1F
100
AcDbEntity
  8
0
  6
Continuous
 62
     7
370
    25
100
AcDbLine
 10
87.4476372503
 20
283.9864738176
 30
0.0
 11
177.4476408266
 21
283.9864738176
 31
0.0
  0
LINE
  5
8E
330
1F
100
AcDbEntity
  8
0
  6
Continuous
 62
     7
370
    25
100
AcDbLine
 10
87.4476372503
 20
-220.905469133
 30
0.0
 11
87.4476372503
 21
-371.5192092195
 31
0.0
  0
LINE
  5
8F
330
1F
100
AcDbEntity
  8
0
  6
Continuous
 62
     7
370
    25
100
AcDbLine
 10
177.4476408266
 20
-371.5192092195
 30
0.0
 11
177.4476408266
 21
-220.905469133
 31
0.0
  0
CIRCLE
  5
90
330
1F
100
AcDbEntity
  8
0
  6
Continuous
 62
     7
370
    25
100
AcDbCircle
 10
132.4476390385
 20
-371.5192092195
 30
0.0
 40
36.8
  0
CIRCLE
  5
91
330
1F
100
AcDbEntity
  8
0
  6
Continuous
 62
     7
370
    25
100
AcDbCircle
 10
132.4476390385
 20
-371.5192092195
 30
0.0
 40
45.00000000000001
  0
LWPOLYLINE
  5
92
330
1F
100
AcDbEntity
  8
0
  6
Continuous
 62
     7
370
    25
100
AcDbPolyline
 90
       41
 70
   128
 43
0.0
 10
87.4476372503
 20
-220.905469133
 10
87.5863596104
 20
-218.4089136854
 10
88.0016624235
 20
-215.9277511373
 10
88.6909938656
 20
-213.4772849813
 10
89.65009593
 20
-211.0726100937
 10
90.8730603062
 20
-208.7285531298
 10
92.3523470067
 20
-206.4595682159
 10
94.0788327955
 20
-204.2796624437
 10
96.0418745183
 20
-202.2022468582
 10
98.2293724321
 20
-200.2401513592
 10
100.6278335356
 20
-198.4054607883
 10
103.2224777393
 20
-196.7095000282
 10
105.997303059
 20
-195.1626998917
 10
108.9352029615
 20
-193.7746269241
 10
112.0180669479
 20
-192.5538045898
 10
115.2268848621
 20
-191.5078026787
 10
118.541874481
 20
-190.64302869
 10
121.9425979309
 20
-189.9648470417
 10
125.4080878809
 20
-189.4774151579
 10
128.9169797913
 20
-189.1837430731
 10
132.4476390385
 20
-189.0856636301
 10
135.9782982856
 20
-189.1837430731
 10
139.487190196
 20
-189.4774151579
 10
142.952680146
 20
-189.9648470417
 10
146.3534035959
 20
-190.64302869
 10
149.6683932148
 20
-191.5078026787
 10
152.877211129
 20
-192.5538045898
 10
155.9600751155
 20
-193.7746269241
 10
158.8979750179
 20
-195.1626998917
 10
161.6728003376
 20
-196.7095000282
 10
164.2674445413
 20
-198.4054607883
 10
166.6659056448
 20
-200.2401513592
 10
168.8534035586
 20
-202.2022468582
 10
170.8164452814
 20
-204.2796624437
 10
172.5429310702
 20
-206.4595682159
 10
174.0222177707
 20
-208.7285531298
 10
175.2451821469
 20
-211.0726100937
 10
176.2042842113
 20
-213.4772849813
 10
176.8936156534
 20
-215.9277511373
 10
177.3089184665
 20
-218.4089136854
 10
177.4476408266
 20
-220.905469133
  0
INSERT
  5
9E
330
1F
100
AcDbEntity
  8
FORMAT
100
AcDbBlockReference
  2
SW_CENTERMARKSYMBOL_0
 10
132.4476390385
 20
-371.5192092195
 30
0.0
  0
LINE
  5
9F
330
1F
100
AcDbEntity
  8
0
  6
Continuous
 62
     7
370
    25
100
AcDbLine
 10
177.4476408266
 20
482.4188748174
 30
0.0
 11
177.4476408266
 21
633.032614904
 31
0.0
  0
LINE
  5
A0
330
1F
100
AcDbEntity
  8
0
  6
Continuous
 62
     7
370
    25
100
AcDbLine
 10
87.4476372503
 20
633.032614904
 30
0.0
 11
87.4476372503
 21
482.4188748174
 31
0.0
  0
CIRCLE
  5
A1
330
1F
100
AcDbEntity
  8
0
  6
Continuous
 62
     7
370
    25
100
AcDbCircle
 10
132.4476390385
 20
633.032614904
 30
0.0
 40
36.8
  0
CIRCLE
  5
A2
330
1F
100
AcDbEntity
  8
0
  6
Continuous
 62
     7
370
    25
100
AcDbCircle
 10
132.4476390385
 20
633.032614904
 30
0.0
 40
45.00000000000001
  0
LWPOLYLINE
  5
A3
330
1F
100
AcDbEntity
  8
0
  6
Continuous
 62
     7
370
    25
100
AcDbPolyline
 90
       81
 70
   128
 43
0.0
 10
132.4476390385
 20
514.2386728697
 10
128.9169797913
 20
514.1405859762
 10
125.4080878809
 20
513.8469213419
 10
121.9425979309
 20
513.3594894581
 10
118.541874481
 20
512.6813003593
 10
115.2268848621
 20
511.8165338212
 10
112.0180669479
 20
510.7705244594
 10
108.9352029615
 20
509.5497170263
 10
105.997303059
 20
508.1616366082
 10
103.2224777393
 20
506.6148439222
 10
100.6278335356
 20
504.9188682609
 10
98.2293724321
 20
503.0841776901
 10
96.0418745183
 20
501.122082191
 10
94.0788327955
 20
499.0446666055
 10
92.3523470067
 20
496.8647608333
 10
90.8730603062
 20
494.5957759195
 10
89.65009593
 20
492.2517338567
 10
88.6909938656
 20
489.8470589691
 10
88.0016624235
 20
487.3965779119
 10
87.5863596104
 20
484.915430265
 10
87.4476372503
 20
482.4188748174
 10
87.5863596104
 20
479.9223193698
 10
88.0016624235
 20
477.4411568218
 10
88.6909938656
 20
474.9906906658
 10
89.65009593
 20
472.5860157781
 10
90.8730603062
 20
470.2419588142
 10
92.3523470067
 20
467.9729739004
 10
94.0788327955
 20
465.7930681282
 10
96.0418745183
 20
463.7156525426
 10
98.2293724321
 20
461.7535570436
 10
100.6278335356
 20
459.9188664728
 10
103.2224777393
 20
458.2229057127
 10
105.997303059
 20
456.6761055761
 10
108.9352029615
 20
455.2880326086
 10
112.0180669479
 20
454.0672102743
 10
115.2268848621
 20
453.0212083631
 10
118.541874481
 20
452.1564343744
 10
121.9425979309
 20
451.4782527261
 10
125.4080878809
 20
450.9908208423
 10
128.9169797913
 20
450.6971487575
 10
132.4476390385
 20
450.5990693145
 10
135.9782982856
 20
450.6971487575
 10
139.487190196
 20
450.9908208423
 10
142.952680146
 20
451.4782527261
 10
146.3534035959
 20
452.1564343744
 10
149.6683932148
 20
453.0212083631
 10
152.877211129
 20
454.0672102743
 10
155.9600751155
 20
455.2880326086
 10
158.8979750179
 20
456.6761055761
 10
161.6728003376
 20
458.2229057127
 10
164.2674445413
 20
459.9188664728
 10
166.6659056448
 20
461.7535570436
 10
168.8534035586
 20
463.7156525426
 10
170.8164452814
 20
465.7930681282
 10
172.5429310702
 20
467.9729739004
 10
174.0222177707
 20
470.2419588142
 10
175.2451821469
 20
472.5860157781
 10
176.2042842113
 20
474.9906906658
 10
176.8936156534
 20
477.4411568218
 10
177.3089184665
 20
479.9223193698
 10
177.4476408266
 20
482.4188748174
 10
177.3089184665
 20
484.915430265
 10
176.8936156534
 20
487.3965779119
 10
176.2042842113
 20
489.8470589691
 10
175.2451821469
 20
492.2517338567
 10
174.0222177707
 20
494.5957759195
 10
172.5429310702
 20
496.8647608333
 10
170.8164452814
 20
499.0446666055
 10
168.8534035586
 20
501.122082191
 10
166.6659056448
 20
503.0841776901
 10
164.2674445413
 20
504.9188682609
 10
161.6728003376
 20
506.6148439222
 10
158.8979750179
 20
508.1616366082
 10
155.9600751155
 20
509.5497170263
 10
152.877211129
 20
510.7705244594
 10
149.6683932148
 20
511.8165338212
 10
146.3534035959
 20
512.6813003593
 10
142.952680146
 20
513.3594894581
 10
139.487190196
 20
513.8469213419
 10
135.9782982856
 20
514.1405859762
 10
132.4476390385
 20
514.2386728697
  0
LWPOLYLINE
  5
A4
330
1F
100
AcDbEntity
  8
0
  6
Continuous
 62
     7
370
    25
100
AcDbPolyline
 90
       73
 70
   128
 43
0.0
 10
132.4476390385
 20
508.4404000812
 10
129.240307748
 20
508.3413818651
 10
126.0573859565
 20
508.0450722747
 10
122.9230980628
 20
507.5537362867
 10
119.8612977989
 20
506.8711140924
 10
116.8952868559
 20
506.002391296
 10
114.0476386302
 20
504.9541691118
 10
111.3400268607
 20
503.7344643646
 10
108.7930551969
 20
502.3525157743
 10
106.4261100494
 20
500.8188733631
 10
104.2572031968
 20
499.1451898389
 10
102.302843263
 20
497.3442056947
 10
100.5779034697
 20
495.4296299987
 10
99.0955136024
 20
493.4160509878
 10
97.8669501149
 20
491.3187572532
 10
96.901567211
 20
489.153737741
 10
96.2067148887
 20
486.9374582344
 10
95.7876756095
 20
484.6868017488
 10
95.6476382219
 20
482.4188748174
 10
95.7876756095
 20
480.150947886
 10
96.2067148887
 20
477.9002764993
 10
96.901567211
 20
475.6839969926
 10
97.8669501149
 20
473.5189774805
 10
99.0955136024
 20
471.4216986471
 10
100.5779034697
 20
469.4081047349
 10
102.302843263
 20
467.493529039
 10
104.2572031968
 20
465.6925597959
 10
106.4261100494
 20
464.0188762718
 10
108.7930551969
 20
462.4852189594
 10
111.3400268607
 20
461.1032852703
 10
114.0476386302
 20
459.8835656219
 10
116.8952868559
 20
458.8353583389
 10
119.8612977989
 20
457.9666355424
 10
122.9230980628
 20
457.283998447
 10
126.0573859565
 20
456.7926624589
 10
129.240307748
 20
456.4963677698
 10
132.4476390385
 20
456.3973346525
 10
135.6549703289
 20
456.4963677698
 10
138.8378921204
 20
456.7926624589
 10
141.9721800141
 20
457.283998447
 10
145.033980278
 20
457.9666355424
 10
147.999991221
 20
458.8353583389
 10
150.8476394467
 20
459.8835656219
 10
153.5552512162
 20
461.1032852703
 10
156.10222288
 20
462.4852189594
 10
158.4691680275
 20
464.0188762718
 10
160.6380748801
 20
465.6925597959
 10
162.5924348139
 20
467.493529039
 10
164.3173746072
 20
469.4081047349
 10
165.7997644745
 20
471.4216986471
 10
167.0283279621
 20
473.5189774805
 10
167.9937108659
 20
475.6839969926
 10
168.6885631882
 20
477.9002764993
 10
169.1076024674
 20
480.150947886
 10
169.247639855
 20
482.4188748174
 10
169.1076024674
 20
484.6868017488
 10
168.6885631882
 20
486.9374582344
 10
167.9937108659
 20
489.153737741
 10
167.0283279621
 20
491.3187572532
 10
165.7997644745
 20
493.4160509878
 10
164.3173746072
 20
495.4296299987
 10
162.5924348139
 20
497.3442056947
 10
160.6380748801
 20
499.1451898389
 10
158.4691680275
 20
500.8188733631
 10
156.10222288
 20
502.3525157743
 10
153.5552512162
 20
503.7344643646
 10
150.8476394467
 20
504.9541691118
 10
147.999991221
 20
506.002391296
 10
145.033980278
 20
506.8711140924
 10
141.9721800141
 20
507.5537362867
 10
138.8378921204
 20
508.0450722747
 10
135.6549703289
 20
508.3413818651
 10
132.4476390385
 20
508.4404000812
  0
INSERT
  5
B0
330
1F
100
AcDbEntity
  8
FORMAT
100
AcDbBlockReference
  2
SW_CENTERMARKSYMBOL_1
 10
132.4476390385
 20
633.032614904
 30
0.0
  0
LINE
  5
B1
330
1F
100
AcDbEntity
  8
0
  6
Continuous
 62
     7
370
    25
100
AcDbLine
 10
527.5298438254
 20
179.6260721872
 30
0.0
 11
527.5298438254
 21
283.9864738176
 31
0.0
  0
LINE
  5
B2
330
1F
100
AcDbEntity
  8
0
  6
Continuous
 62
     7
370
    25
100
AcDbLine
 10
527.5298438254
 20
-37.0135359576
 30
0.0
 11
527.5298438254
 21
52.3468501756
 31
0.0
  0
LINE
  5
B3
330
1F
100
AcDbEntity
  8
0
  6
Continuous
 62
     7
370
    25
100
AcDbLine
 10
437.5298402492
 20
283.9864738176
 30
0.0
 11
437.5298402492
 21
-37.0135359576
 31
0.0
  0
LINE
  5
B4
330
1F
100
AcDbEntity
  8
0
  6
Continuous
 62
     7
370
    25
100
AcDbLine
 10
601.3237840715
 20
253.4200198839
 30
0.0
 11
527.5298438254
 21
179.6260721872
 31
0.0
  0
LINE
  5
B5
330
1F
100
AcDbEntity
  8
0
  6
Continuous
 62
     7
370
    25
100
AcDbLine
 10
527.5298438254
 20
52.3468501756
 30
0.0
 11
664.9633876267
 21
189.7804088781
 31
0.0
  0
LINE
  5
B6
330
1F
100
AcDbEntity
  8
0
  6
Continuous
 62
     7
370
    25
100
AcDbLine
 10
482.5298420373
 20
-37.0135359576
 30
0.0
 11
527.5298438254
 21
-37.0135359576
 31
0.0
  0
LINE
  5
B7
330
1F
100
AcDbEntity
  8
0
  6
Continuous
 62
     7
370
    25
100
AcDbLine
 10
437.5298402492
 20
-37.0135359576
 30
0.0
 11
482.5298420373
 21
-37.0135359576
 31
0.0
  0
LINE
  5
B8
330
1F
100
AcDbEntity
  8
0
  6
Continuous
 62
     7
370
    25
100
AcDbLine
 10
482.5298420373
 20
283.9864738176
 30
0.0
 11
527.5298438254
 21
283.9864738176
 31
0.0
  0
LINE
  5
B9
330
1F
100
AcDbEntity
  8
0
  6
Continuous
 62
     7
370
    25
100
AcDbLine
 10
437.5298402492
 20
283.9864738176
 30
0.0
 11
482.5298420373
 21
283.9864738176
 31
0.0
  0
LWPOLYLINE
  5
BA
330
1F
100
AcDbEntity
  8
0
  6
Continuous
 62
     7
370
    25
100
AcDbPolyline
 90
       33
 70
   128
 43
0.0
 10
482.5298420373
 20
70.9864668438
 10
484.7378874883
 20
76.3171560953
 10
486.9406132247
 20
81.6350079963
 10
489.132713269
 20
86.9272075484
 10
491.3089067895
 20
92.181006808
 10
493.4639499742
 20
97.3837323377
 10
495.5926525626
 20
102.5228746126
 10
497.6898857612
 20
107.5860507677
 10
499.7505962137
 20
112.5610418508
 10
501.7698209021
 20
117.4358822296
 10
503.7426955286
 20
122.1988148878
 10
505.6644647602
 20
126.8383808324
 10
507.5305017862
 20
131.3434041927
 10
509.3363101814
 20
135.7030071209
 10
511.0775406692
 20
139.9066991994
 10
512.7499948475
 20
143.94436254
 10
514.3496475402
 20
147.8062666843
 10
515.8726430718
 20
151.4830984066
 10
517.3153138939
 20
154.9660213182
 10
518.6741805855
 20
158.2466162632
 10
519.9459760669
 20
161.3170005271
 10
521.127630699
 20
164.1697682331
 10
522.21629836
 20
166.7980499456
 10
523.2093601707
 20
169.1955126712
 10
524.1044207696
 20
171.3563747594
 10
524.8993232134
 20
173.2754506061
 10
525.5921564284
 20
174.948091049
 10
526.1812477592
 20
176.3702876756
 10
526.6651778701
 20
177.5385983179
 10
527.0427844707
 20
178.4502215574
 10
527.3131548647
 20
179.1029520223
 10
527.4756371263
 20
179.4952101896
 10
527.5298438254
 20
179.6260721872
  0
LWPOLYLINE
  5
BB
330
1F
100
AcDbEntity
  8
0
  6
Continuous
 62
     7
370
    25
100
AcDbPolyline
 90
       22
 70
   128
 43
0.0
 10
527.5298438254
 20
52.3468501756
 10
527.4968191269
 20
52.3605294416
 10
527.2329344634
 20
52.4698369095
 10
526.706714857
 20
52.6878036449
 10
525.9212485734
 20
53.0131555984
 10
524.8811437968
 20
53.4439779708
 10
523.5925062779
 20
53.977752466
 10
522.0628946308
 20
54.6113349388
 10
520.301286805
 20
55.3410224507
 10
518.3180204812
 20
56.1625160167
 10
516.1247371915
 20
57.0710025618
 10
513.7343040887
 20
58.0611549208
 10
511.1607524786
 20
59.1271541903
 10
508.4191809628
 20
60.2627493331
 10
505.5256827954
 20
61.4612720797
 10
502.4972341243
 20
62.7156965325
 10
499.3516101721
 20
64.0186615179
 10
496.107268821
 20
65.362507839
 10
492.7832500297
 20
66.7393602321
 10
489.3990598838
 20
68.1411422679
 10
485.9745583716
 20
69.5596136043
 10
482.5298420373
 20
70.9864668438
  0
LWPOLYLINE
  5
BC
330
1F
100
AcDbEntity
  8
0
  6
Continuous
 62
     7
370
    25
100
AcDbPolyline
 90
       42
 70
   128
 43
0.0
 10
601.3237840715
 20
253.4200198839
 10
601.4218709651
 20
253.3219106386
 10
601.7155355993
 20
253.0282683561
 10
602.2029674831
 20
252.5408215711
 10
602.881156582
 20
251.8626399229
 10
603.7459231201
 20
250.9978659341
 10
604.7919324819
 20
249.951864023
 10
606.012739915
 20
248.7310416887
 10
607.4008203331
 20
247.3429687212
 10
608.9476130191
 20
245.7961685846
 10
610.6435886804
 20
244.1002078245
 10
612.4782792512
 20
242.2655172536
 10
614.4403747502
 20
240.3034217546
 10
616.5177903358
 20
238.2260210702
 10
618.697696108
 20
236.0461003969
 10
620.9666810218
 20
233.7771303842
 10
623.3107230846
 20
231.4330585191
 10
625.7153979722
 20
229.0283985326
 10
628.1658790294
 20
226.5779323766
 10
630.6470266763
 20
224.0967698286
 10
633.1435821239
 20
221.6001994798
 10
635.6401375714
 20
219.1036589334
 10
638.1213001195
 20
216.6224963853
 10
640.5717662755
 20
214.1720302293
 10
642.9764411632
 20
211.7673404405
 10
645.3204981271
 20
209.4232983778
 10
647.5894830409
 20
207.1543134639
 10
649.7693888131
 20
204.9744076917
 10
651.8468043986
 20
202.8969921062
 10
653.8088998977
 20
200.9348966072
 10
655.6435904685
 20
199.1002060363
 10
657.3395512286
 20
197.4042452762
 10
658.8863513652
 20
195.8574451396
 10
660.2744243327
 20
194.469357271
 10
661.495246667
 20
193.2485498378
 10
662.5412485782
 20
192.2025479267
 10
663.4060225669
 20
191.3377739379
 10
664.0842042152
 20
190.6595922897
 10
664.571636099
 20
190.1721604059
 10
664.8653081838
 20
189.8784883211
 10
664.9633876267
 20
189.7804088781
 10
664.9633876267
 20
189.7804088781
  0
LINE
  5
BD
330
1F
100
AcDbEntity
  8
0
  6
Continuous
 62
     7
370
    25
100
AcDbLine
 10
-192.706389794
 20
-37.0135359576
 30
0.0
 11
-192.706389794
 21
283.9864738176
 31
0.0
  0
LINE
  5
BE
330
1F
100
AcDbEntity
  8
0
  6
Continuous
 62
     7
370
    25
100
AcDbLine
 10
-282.7063933703
 20
52.3468501756
 30
0.0
 11
-282.7063933703
 21
-37.0135359576
 31
0.0
  0
LINE
  5
BF
330
1F
100
AcDbEntity
  8
0
  6
Continuous
 62
     7
370
    25
100
AcDbLine
 10
-282.7063933703
 20
283.9864738176
 30
0.0
 11
-282.7063933703
 21
179.6260721872
 31
0.0
  0
LINE
  5
C0
330
1F
100
AcDbEntity
  8
0
  6
Continuous
 62
     7
370
    25
100
AcDbLine
 10
-420.1399371716
 20
189.7804088781
 30
0.0
 11
-282.7063933703
 21
52.3468501756
 31
0.0
  0
LINE
  5
C1
330
1F
100
AcDbEntity
  8
0
  6
Continuous
 62
     7
370
    25
100
AcDbLine
 10
-282.7063933703
 20
179.6260721872
 30
0.0
 11
-356.5003336164
 21
253.4200198839
 31
0.0
  0
LINE
  5
C2
330
1F
100
AcDbEntity
  8
0
  6
Continuous
 62
     7
370
    25
100
AcDbLine
 10
-282.7063933703
 20
-37.0135359576
 30
0.0
 11
-192.706389794
 21
-37.0135359576
 31
0.0
  0
LINE
  5
C3
330
1F
100
AcDbEntity
  8
0
  6
Continuous
 62
     7
370
    25
100
AcDbLine
 10
-282.7063933703
 20
283.9864738176
 30
0.0
 11
-192.706389794
 21
283.9864738176
 31
0.0
  0
LWPOLYLINE
  5
C4
330
1F
100
AcDbEntity
  8
0
  6
Continuous
 62
     7
370
    25
100
AcDbPolyline
 90
       33
 70
   128
 43
0.0
 10
-282.7063933703
 20
179.6260721872
 10
-282.6521866712
 20
179.4952101896
 10
-282.4897044095
 20
179.1029520223
 10
-282.2193340155
 20
178.4502215574
 10
-281.841727415
 20
177.5385983179
 10
-281.3577973041
 20
176.3702876756
 10
-280.7687059733
 20
174.948091049
 10
-280.0758727583
 20
173.2754506061
 10
-279.2809703144
 20
171.3563747594
 10
-278.3859097156
 20
169.1955126712
 10
-277.3928479048
 20
166.7980499456
 10
-276.3041802439
 20
164.1697682331
 10
-275.1225256118
 20
161.3170005271
 10
-273.8507301303
 20
158.2466162632
 10
-272.4918634388
 20
154.9660213182
 10
-271.0491926166
 20
151.4830984066
 10
-269.5261970851
 20
147.8062666843
 10
-267.9265443924
 20
143.94436254
 10
-266.254090214
 20
139.9066991994
 10
-264.5128597262
 20
135.7030071209
 10
-262.7070513311
 20
131.3434041927
 10
-260.841014305
 20
126.8383808324
 10
-258.9192450735
 20
122.1988148878
 10
-256.9463704469
 20
117.4358822296
 10
-254.9271457585
 20
112.5610418508
 10
-252.866435306
 20
107.5860507677
 10
-250.7692021075
 20
102.5228746126
 10
-248.6404995191
 20
97.3837323377
 10
-246.4854563343
 20
92.181006808
 10
-244.3092628139
 20
86.9272075484
 10
-242.1171627696
 20
81.6350079963
 10
-239.9144370331
 20
76.3171560953
 10
-237.7063915822
 20
70.9864668438
  0
LWPOLYLINE
  5
C5
330
1F
100
AcDbEntity
  8
0
  6
Continuous
 62
     7
370
    25
100
AcDbPolyline
 90
       22
 70
   128
 43
0.0
 10
-237.7063915822
 20
70.9864668438
 10
-241.1511079165
 20
69.5596136043
 10
-244.5756094287
 20
68.1411422679
 10
-247.9597995746
 20
66.7393602321
 10
-251.2838183659
 20
65.362507839
 10
-254.528159717
 20
64.0186615179
 10
-257.6737836691
 20
62.7156965325
 10
-260.7022323402
 20
61.4612720797
 10
-263.5957305076
 20
60.2627493331
 10
-266.3373020234
 20
59.1271541903
 10
-268.9108536336
 20
58.0611549208
 10
-271.3012867364
 20
57.0710025618
 10
-273.4945700261
 20
56.1625160167
 10
-275.4778363499
 20
55.3410224507
 10
-277.2394441756
 20
54.6113349388
 10
-278.7690558228
 20
53.977752466
 10
-280.0576933416
 20
53.4439779708
 10
-281.0977981183
 20
53.0131555984
 10
-281.8832644018
 20
52.6878036449
 10
-282.4094840082
 20
52.4698369095
 10
-282.6733686718
 20
52.3605294416
 10
-282.7063933703
 20
52.3468501756
  0
LWPOLYLINE
  5
C6
330
1F
100
AcDbEntity
  8
0
  6
Continuous
 62
     7
370
    25
100
AcDbPolyline
 90
       42
 70
   128
 43
0.0
 10
-420.1399371716
 20
189.7804088781
 10
-420.0418577286
 20
189.8784883211
 10
-419.7481856438
 20
190.1721604059
 10
-419.26075376
 20
190.6595922897
 10
-418.5825721118
 20
191.3377739379
 10
-417.717798123
 20
192.2025479267
 10
-416.6717962119
 20
193.2485498378
 10
-415.4509738776
 20
194.469357271
 10
-414.06290091
 20
195.8574451396
 10
-412.5161007735
 20
197.4042452762
 10
-410.8201400134
 20
199.1002060363
 10
-408.9854494425
 20
200.9348966072
 10
-407.0233539435
 20
202.8969921062
 10
-404.945938358
 20
204.9744076917
 10
-402.7660325858
 20
207.1543134639
 10
-400.4970476719
 20
209.4232983778
 10
-398.152990708
 20
211.7673404405
 10
-395.7483158204
 20
214.1720302293
 10
-393.2978496644
 20
216.6224963853
 10
-390.8166871163
 20
219.1036589334
 10
-388.3201316687
 20
221.6001994798
 10
-385.8235762211
 20
224.0967698286
 10
-383.3424285742
 20
226.5779323766
 10
-380.8919475171
 20
229.0283985326
 10
-378.4872726294
 20
231.4330585191
 10
-376.1432305667
 20
233.7771303842
 10
-373.8742456528
 20
236.0461003969
 10
-371.6943398806
 20
238.2260210702
 10
-369.6169242951
 20
240.3034217546
 10
-367.6548287961
 20
242.2655172536
 10
-365.8201382252
 20
244.1002078245
 10
-364.1241625639
 20
245.7961685846
 10
-362.577369878
 20
247.3429687212
 10
-361.1892894599
 20
248.7310416887
 10
-359.9684820267
 20
249.951864023
 10
-358.922472665
 20
250.9978659341
 10
-358.0577061268
 20
251.8626399229
 10
-357.379517028
 20
252.5408215711
 10
-356.8920851442
 20
253.0282683561
 10
-356.59842051
 20
253.3219106386
 10
-356.5003336164
 20
253.4200198839
 10
-356.5003336164
 20
253.4200198839
  0
LINE
  5
C7
330
1F
100
AcDbEntity
  8
0
  6
Continuous
 62
     7
370
    25
100
AcDbLine
 10
355.1338583474
 20
-196.1023459179
 30
0.0
 11
455.6050054553
 21
-370.1234662464
 31
0.0
  0
LINE
  5
C8
330
1F
100
AcDbEntity
  8
0
  6
Continuous
 62
     7
370
    25
100
AcDbLine
 10
508.2128940616
 20
-281.243007196
 30
0.0
 11
433.0761464707
 21
-151.102344756
 31
0.0
  0
LINE
  5
C9
330
1F
100
AcDbEntity
  8
0
  6
Continuous
 62
     7
370
    25
100
AcDbLine
 10
545.6050051267
 20
-446.2521635402
 30
0.0
 11
545.6050051267
 21
-184.142554943
 31
0.0
  0
LINE
  5
CA
330
1F
100
AcDbEntity
  8
0
  6
Continuous
 62
     7
370
    25
100
AcDbLine
 10
455.6050041382
 20
-368.8279217446
 30
0.0
 11
455.6050041382
 21
-446.2521635402
 31
0.0
  0
LINE
  5
CB
330
1F
100
AcDbEntity
  8
0
  6
Continuous
 62
     7
370
    25
100
AcDbLine
 10
455.6050041382
 20
-184.142554943
 30
0.0
 11
455.6050041382
 21
-190.1234678246
 31
0.0
  0
ELLIPSE
  5
CC
330
1F
100
AcDbEntity
  8
0
  6
Continuous
 62
     7
370
    25
100
AcDbEllipse
 10
500.6050046325
 20
-358.0657558565
 30
0.0
 11
44.83776421404787
 21
12.01424274210774
 31
0.0
210
0.0
220
0.0
230
1.0
 40
0.3177652438
 41
0.7004580896382409
 42
3.056652579830584
  0
ELLIPSE
  5
CD
330
1F
100
AcDbEntity
  8
0
  6
Continuous
 62
     7
370
    25
100
AcDbEllipse
 10
500.6050046325
 20
-358.0657558565
 30
0.0
 11
-29.00555936608668
 21
108.2502209810523
 31
0.0
210
0.0
220
0.0
230
1.0
 40
0.3178248929
 41
4.797329054143887
 42
5.412847070022954
  0
LWPOLYLINE
  5
CE
330
1F
100
AcDbEntity
  8
0
  6
Continuous
 62
     7
370
    25
100
AcDbPolyline
 90
       81
 70
   128
 43
0.0
 10
416.6050026562
 20
-160.6091430985
 10
414.0390916529
 20
-162.0904432582
 10
411.3502781344
 20
-163.6426829808
 10
408.5551403002
 20
-165.2563585557
 10
405.6709135771
 20
-166.9214711138
 10
402.7153796547
 20
-168.6277853681
 10
399.7067624351
 20
-170.3647558412
 10
396.6636071903
 20
-172.1217061386
 10
393.6046771704
 20
-173.8877669659
 10
390.5488317729
 20
-175.6520803071
 10
387.5149053708
 20
-177.403741627
 10
384.5216151162
 20
-179.1319747733
 10
381.5874094747
 20
-180.826116005
 10
378.730374713
 20
-182.4757105718
 10
375.9681387502
 20
-184.070616892
 10
373.317710474
 20
-185.6009654947
 10
370.7954560324
 20
-187.0573673799
 10
368.4169065393
 20
-188.430781708
 10
366.1967238294
 20
-189.7127789166
 10
364.1486240678
 20
-190.8954631579
 10
362.2852012596
 20
-191.971537708
 10
360.6179614946
 20
-192.9343338631
 10
359.157178067
 20
-193.7779554363
 10
357.9118677682
 20
-194.4971829465
 10
356.8896934221
 20
-195.087602904
 10
356.096961251
 20
-195.5455363345
 10
355.5385602893
 20
-195.8681954425
 10
355.2179439443
 20
-196.0535725924
 10
355.1370694104
 20
-196.1005361403
 10
355.2964529864
 20
-196.0087863305
 10
355.695098953
 20
-195.7788963761
 10
356.3305641102
 20
-195.4122752035
 10
357.1989090446
 20
-194.9111956035
 10
358.29480218
 20
-194.2787463274
 10
359.6114644591
 20
-193.5188032085
 10
361.1408063212
 20
-192.6360717484
 10
362.8733704087
 20
-191.6359985459
 10
364.7984981787
 20
-190.5247359348
 10
366.9043032321
 20
-189.3091452357
 10
369.1778069738
 20
-187.9967184326
 10
371.6050074303
 20
-186.5955384494
 10
374.1709131652
 20
-185.1142595831
 10
376.8597319521
 20
-183.5619985671
 10
379.6548697863
 20
-181.9483351596
 10
382.539091241
 20
-180.2832195601
 10
385.4946304318
 20
-178.5769083471
 10
388.503242383
 20
-176.8399348328
 10
391.5464081645
 20
-175.0830027855
 10
394.6053329161
 20
-173.3169267494
 10
397.6611835819
 20
-171.5526164496
 10
400.6950994473
 20
-169.8009490469
 10
403.688389702
 20
-168.0727159006
 10
406.6225953434
 20
-166.3785746689
 10
409.4796301052
 20
-164.7289679347
 10
412.2418660679
 20
-163.1340737819
 10
414.8922943441
 20
-161.6037130118
 10
417.4145593224
 20
-160.1473415442
 10
419.7931088156
 20
-158.7739028813
 10
422.0132809887
 20
-157.4918995899
 10
424.0613912871
 20
-156.3092214313
 10
425.9248140952
 20
-155.2331712161
 10
427.5920538602
 20
-154.2703507262
 10
429.0528267511
 20
-153.4267230702
 10
430.2981475866
 20
-152.7075016427
 10
431.3203219327
 20
-152.11710602
 10
432.1130435671
 20
-151.6591421721
 10
432.6714445288
 20
-151.3364952314
 10
432.9920608738
 20
-151.1511059141
 10
433.0729354077
 20
-151.1041545337
 10
432.9135518317
 20
-151.1959043434
 10
432.5149058651
 20
-151.4257942979
 10
431.8794512446
 20
-151.7924215532
 10
431.0111010419
 20
-152.2934981118
 10
429.9152131749
 20
-152.9259625966
 10
428.598540359
 20
-153.6858874654
 10
427.0692037652
 20
-154.5686219668
 10
425.3366344094
 20
-155.568692128
 10
423.4115119077
 20
-156.6799577805
 10
421.3057068543
 20
-157.8955363122
 10
419.0321978444
 20
-159.2079844088
 10
416.6050026562
 20
-160.6091430985
  0
LWPOLYLINE
  5
CF
330
1F
100
AcDbEntity
  8
0
  6
Continuous
 62
     7
370
    25
100
AcDbPolyline
 90
       73
 70
   128
 43
0.0
 10
412.5050046482
 20
-162.9767970829
 10
410.1670624912
 20
-164.3264876689
 10
407.7068743878
 20
-165.7467511833
 10
405.1431711549
 20
-167.22679859
 10
402.4954646432
 20
-168.7554019432
 10
399.7838984119
 20
-170.3208589212
 10
397.0291020264
 20
-171.9112959556
 10
394.2520698857
 20
-173.5146165088
 10
391.4739037312
 20
-175.1185889091
 10
388.7157718178
 20
-176.7110402529
 10
385.9986501051
 20
-178.2798354952
 10
383.3432208419
 20
-179.8130211699
 10
380.7696947592
 20
-181.2989280511
 10
378.2976714585
 20
-182.726276096
 10
375.9459352635
 20
-184.084170647
 10
373.7324064874
 20
-185.3623009081
 10
371.6739254301
 20
-186.5509308284
 10
369.7861654511
 20
-187.6410222973
 10
368.0834775523
 20
-188.6242640529
 10
366.5788324263
 20
-189.4931781492
 10
365.2836729425
 20
-190.2411321339
 10
364.2078614633
 20
-190.8624789817
 10
363.3595902826
 20
-191.3524749765
 10
362.7453157706
 20
-191.7073664132
 10
362.3696977883
 20
-191.9244732628
 10
362.2356049556
 20
-192.0021374717
 10
362.3440685532
 20
-191.9397739258
 10
362.6942443269
 20
-191.737831685
 10
363.2834678058
 20
-191.3978837274
 10
364.1072740581
 20
-190.9224938835
 10
365.1593726666
 20
-190.3152921418
 10
366.4317695595
 20
-189.5808921478
 10
367.9147762301
 20
-188.7248858995
 10
369.59709864
 20
-187.7537924305
 10
371.4659478549
 20
-186.6749939433
 10
373.5071014537
 20
-185.496712538
 10
375.7050001699
 20
-184.227893591
 10
378.0429528637
 20
-182.8782212552
 10
380.5031304303
 20
-181.4579394906
 10
383.0668336632
 20
-179.9778799166
 10
385.7145507117
 20
-178.4492948134
 10
388.4261169429
 20
-176.883825668
 10
391.1809027917
 20
-175.293382551
 10
393.9579454692
 20
-173.6900680804
 10
396.7361010869
 20
-172.0860895974
 10
399.494243537
 20
-170.4936443363
 10
402.2113652497
 20
-168.9248734288
 10
404.8667839762
 20
-167.3916816714
 10
407.4403100589
 20
-165.9057626228
 10
409.9123438963
 20
-164.4784206606
 10
412.2640695546
 20
-163.1205200269
 10
414.4775983307
 20
-161.8423775984
 10
416.536079388
 20
-160.6537476781
 10
418.4238499037
 20
-159.5636866267
 10
420.1265378025
 20
-158.5804448711
 10
421.6311829285
 20
-157.7115307748
 10
422.9263318756
 20
-156.9635463726
 10
424.0021433548
 20
-156.3421995248
 10
424.8504145355
 20
-155.8522156974
 10
425.4646995842
 20
-155.4973303435
 10
425.8403070298
 20
-155.2802174111
 10
425.9743998625
 20
-155.2025653696
 10
425.8659468016
 20
-155.2649349982
 10
425.5157710279
 20
-155.4668529042
 10
424.9265370123
 20
-155.8067947791
 10
424.1027412967
 20
-156.2821907057
 10
423.0506321515
 20
-156.8893863647
 10
421.7782457953
 20
-157.6237924414
 10
420.2952391247
 20
-158.4798108571
 10
418.6129061781
 20
-159.450886076
 10
416.7440569632
 20
-160.5296967306
 10
414.7029139012
 20
-161.707996386
 10
412.5050046482
 20
-162.9767970829
  0
LWPOLYLINE
  5
D0
330
1F
100
AcDbEntity
  8
0
  6
Continuous
 62
     7
370
    25
100
AcDbPolyline
 90
       81
 70
   128
 43
0.0
 10
468.7851982147
 20
-464.6213467861
 10
466.3867366405
 20
-463.1234903313
 10
464.1992388116
 20
-461.5216181291
 10
462.236198305
 20
-459.8256031852
 10
460.5097112662
 20
-458.0459047272
 10
459.0304260307
 20
-456.1934935008
 10
457.8074627812
 20
-454.2797901826
 10
456.8483585598
 20
-452.316594098
 10
456.1590297302
 20
-450.3160098488
 10
455.7437265388
 20
-448.2903693782
 10
455.6050041382
 20
-446.2521635402
 10
455.7437265388
 20
-444.2139577022
 10
456.1590297302
 20
-442.1883172315
 10
456.8483585598
 20
-440.1877329823
 10
457.8074627812
 20
-438.2245368977
 10
459.0304260307
 20
-436.3108335795
 10
460.5097112662
 20
-434.4584223532
 10
462.236198305
 20
-432.6787238952
 10
464.1992388116
 20
-430.9827089513
 10
466.3867366405
 20
-429.380836749
 10
468.7851982147
 20
-427.8829802942
 10
471.379842832
 20
-426.4983778996
 10
474.1546675316
 20
-425.2355622827
 10
477.0925699126
 20
-424.10232312
 10
480.1754320985
 20
-423.1056433674
 10
483.3842501412
 20
-422.2516701782
 10
486.6992407051
 20
-421.545668522
 10
490.0999645443
 20
-420.9919894404
 10
493.5654536017
 20
-420.5940483775
 10
497.0743460106
 20
-420.3542989483
 10
500.6050046325
 20
-420.274216211
 10
504.1356632544
 20
-420.3542989483
 10
507.6445556632
 20
-420.5940483775
 10
511.1100447206
 20
-420.9919894404
 10
514.5107685599
 20
-421.545668522
 10
517.8257591238
 20
-422.2516701782
 10
521.0345771665
 20
-423.1056433674
 10
524.1174393524
 20
-424.10232312
 10
527.0553417334
 20
-425.2355622827
 10
529.830166433
 20
-426.4983778996
 10
532.4248110503
 20
-427.8829802942
 10
534.8232726245
 20
-429.380836749
 10
537.0107704534
 20
-430.9827089513
 10
538.9738109599
 20
-432.6787238952
 10
540.7002979987
 20
-434.4584223532
 10
542.1795832343
 20
-436.3108335795
 10
543.4025464837
 20
-438.2245368977
 10
544.3616507052
 20
-440.1877329823
 10
545.0509795347
 20
-442.1883172315
 10
545.4662827261
 20
-444.2139577022
 10
545.6050051267
 20
-446.2521635402
 10
545.4662827261
 20
-448.2903693782
 10
545.0509795347
 20
-450.3160098488
 10
544.3616507052
 20
-452.316594098
 10
543.4025464837
 20
-454.2797901826
 10
542.1795832343
 20
-456.1934935008
 10
540.7002979987
 20
-458.0459047272
 10
538.9738109599
 20
-459.8256031852
 10
537.0107704534
 20
-461.5216181291
 10
534.8232726245
 20
-463.1234903313
 10
532.4248110503
 20
-464.6213467861
 10
529.830166433
 20
-466.0059491808
 10
527.0553417334
 20
-467.2687647976
 10
524.1174393524
 20
-468.4020039604
 10
521.0345771665
 20
-469.398683713
 10
517.8257591238
 20
-470.2526569021
 10
514.5107685599
 20
-470.9586585584
 10
511.1100447206
 20
-471.51233764
 10
507.6445556632
 20
-471.9102787029
 10
504.1356632544
 20
-472.1500281321
 10
500.6050046325
 20
-472.2301108694
 10
497.0743460106
 20
-472.1500281321
 10
493.5654536017
 20
-471.9102787029
 10
490.0999645443
 20
-471.51233764
 10
486.6992407051
 20
-470.9586585584
 10
483.3842501412
 20
-470.2526569021
 10
480.1754320985
 20
-469.398683713
 10
477.0925699126
 20
-468.4020039604
 10
474.1546675316
 20
-467.2687647976
 10
471.379842832
 20
-466.0059491808
 10
468.7851982147
 20
-464.6213467861
  0
LWPOLYLINE
  5
D1
330
1F
100
AcDbEntity
  8
0
  6
Continuous
 62
     7
370
    25
100
AcDbPolyline
 90
       42
 70
   128
 43
0.0
 10
455.6050041382
 20
-184.142554943
 10
455.7437265388
 20
-182.104349105
 10
456.1590297302
 20
-180.0787086344
 10
456.8483585598
 20
-178.0781243852
 10
457.8074627812
 20
-176.1149283006
 10
459.0304260307
 20
-174.2012249824
 10
460.5097112662
 20
-172.348813756
 10
462.236198305
 20
-170.569115298
 10
464.1992388116
 20
-168.8731003542
 10
466.3867366405
 20
-167.2712281519
 10
468.7851982147
 20
-165.7733716971
 10
471.379842832
 20
-164.3887693024
 10
474.1546675316
 20
-163.1259536856
 10
477.0925699126
 20
-161.9927145228
 10
480.1754320985
 20
-160.9960347702
 10
483.3842501412
 20
-160.1420615811
 10
486.6992407051
 20
-159.4360599248
 10
490.0999645443
 20
-158.8823808432
 10
493.5654536017
 20
-158.4844397803
 10
497.0743460106
 20
-158.2446903511
 10
500.6050046325
 20
-158.1646076139
 10
504.1356632544
 20
-158.2446903511
 10
507.6445556632
 20
-158.4844397803
 10
511.1100447206
 20
-158.8823808432
 10
514.5107685599
 20
-159.4360599248
 10
517.8257591238
 20
-160.1420615811
 10
521.0345771665
 20
-160.9960347702
 10
524.1174393524
 20
-161.9927145228
 10
527.0553417334
 20
-163.1259536856
 10
529.830166433
 20
-164.3887693024
 10
532.4248110503
 20
-165.7733716971
 10
534.8232726245
 20
-167.2712281519
 10
537.0107704534
 20
-168.8731003542
 10
538.9738109599
 20
-170.569115298
 10
540.7002979987
 20
-172.348813756
 10
542.1795832343
 20
-174.2012249824
 10
543.4025464837
 20
-176.1149283006
 10
544.3616507052
 20
-178.0781243852
 10
545.0509795347
 20
-180.0787086344
 10
545.4662827261
 20
-182.104349105
 10
545.6050051267
 20
-184.142554943
 10
545.6050051267
 20
-184.142554943
  0
LWPOLYLINE
  5
D2
330
1F
100
AcDbEntity
  8
0
  6
Continuous
 62
     7
370
    25
100
AcDbPolyline
 90
       73
 70
   128
 43
0.0
 10
474.5834745074
 20
-461.2740731311
 10
472.4145701888
 20
-459.90766366
 10
470.460210122
 20
-458.4373285418
 10
468.7352686872
 20
-456.8742579749
 10
467.2528777557
 20
-455.230345472
 10
466.024316878
 20
-453.5181031766
 10
465.0589334346
 20
-451.7505640647
 10
464.3640794167
 20
-449.9411785388
 10
463.9450396437
 20
-448.1037167236
 10
463.8050054224
 20
-446.2521635402
 10
463.9450396437
 20
-444.4006103567
 10
464.3640794167
 20
-442.5631485416
 10
465.0589334346
 20
-440.7537630156
 10
466.024316878
 20
-438.9862239038
 10
467.2528777557
 20
-437.2739816084
 10
468.7352686872
 20
-435.6300691055
 10
470.460210122
 20
-434.0669985386
 10
472.4145701888
 20
-432.5966634203
 10
474.5834745074
 20
-431.2302539493
 10
476.9504215988
 20
-429.9781721375
 10
479.4973926974
 20
-428.8499440859
 10
482.2050037104
 20
-427.8541565916
 10
485.0526522373
 20
-426.9983905223
 10
488.0186642613
 20
-426.289157424
 10
491.0804635597
 20
-425.7318534248
 10
494.2147508277
 20
-425.3307227385
 10
497.3976729247
 20
-425.0888162267
 10
500.6050046325
 20
-425.0079761915
 10
503.8123363402
 20
-425.0888162267
 10
506.9952584372
 20
-425.3307227385
 10
510.1295457052
 20
-425.7318534248
 10
513.1913450036
 20
-426.289157424
 10
516.1573570277
 20
-426.9983905223
 10
519.0050055546
 20
-427.8541565916
 10
521.7126165675
 20
-428.8499440859
 10
524.2595876662
 20
-429.9781721375
 10
526.6265347576
 20
-431.2302539493
 10
528.7954390762
 20
-432.5966634203
 10
530.749799143
 20
-434.0669985386
 10
532.4747405778
 20
-435.6300691055
 10
533.9571315092
 20
-437.2739816084
 10
535.185692387
 20
-438.9862239038
 10
536.1510758303
 20
-440.7537630156
 10
536.8459298483
 20
-442.5631485416
 10
537.2649696213
 20
-444.4006103567
 10
537.4050038425
 20
-446.2521635402
 10
537.2649696213
 20
-448.1037167236
 10
536.8459298483
 20
-449.9411785388
 10
536.1510758303
 20
-451.7505640647
 10
535.185692387
 20
-453.5181031766
 10
533.9571315092
 20
-455.230345472
 10
532.4747405778
 20
-456.8742579749
 10
530.749799143
 20
-458.4373285418
 10
528.7954390762
 20
-459.90766366
 10
526.6265347576
 20
-461.2740731311
 10
524.2595876662
 20
-462.5261549429
 10
521.7126165675
 20
-463.6543829944
 10
519.0050055546
 20
-464.6501704888
 10
516.1573570277
 20
-465.5059365581
 10
513.1913450036
 20
-466.2151696563
 10
510.1295457052
 20
-466.7724736556
 10
506.9952584372
 20
-467.1736043419
 10
503.8123363402
 20
-467.4155108537
 10
500.6050046325
 20
-467.4963508889
 10
497.3976729247
 20
-467.4155108537
 10
494.2147508277
 20
-467.1736043419
 10
491.0804635597
 20
-466.7724736556
 10
488.0186642613
 20
-466.2151696563
 10
485.0526522373
 20
-465.5059365581
 10
482.2050037104
 20
-464.6501704888
 10
479.4973926974
 20
-463.6543829944
 10
476.9504215988
 20
-462.5261549429
 10
474.5834745074
 20
-461.2740731311
  0
ENDSEC
  0
SECTION
  2
OBJECTS
  0
DICTIONARY
  5
C
330
0
100
AcDbDictionary
281
     1
  3
ACAD_GROUP
350
D
  3
ACAD_LAYOUT
350
1A
  3
ACAD_MLINESTYLE
350
17
  3
ACAD_PLOTSETTINGS
350
19
  3
ACAD_PLOTSTYLENAME
350
E
  3
ACAD_SCALELIST
350
47
  0
DICTIONARY
  5
D
102
{ACAD_REACTORS
330
C
102
}
330
C
100
AcDbDictionary
281
     1
  0
DICTIONARY
  5
1A
102
{ACAD_REACTORS
330
C
102
}
330
C
100
AcDbDictionary
281
     1
  3
Layout1
350
1E
  3
Layout2
350
26
  3
Model
350
22
  0
DICTIONARY
  5
17
102
{ACAD_REACTORS
330
C
102
}
330
C
100
AcDbDictionary
281
     1
  3
Standard
350
18
  0
DICTIONARY
  5
19
102
{ACAD_REACTORS
330
C
102
}
330
C
100
AcDbDictionary
281
     1
  0
ACDBDICTIONARYWDFLT
  5
E
102
{ACAD_REACTORS
330
C
102
}
330
C
100
AcDbDictionary
281
     1
  3
Normal
350
F
100
AcDbDictionaryWithDefault
340
F
  0
DICTIONARY
  5
47
102
{ACAD_REACTORS
330
C
102
}
330
C
100
AcDbDictionary
281
     1
  3
A0
350
48
  3
A1
350
49
  3
A2
350
4A
  3
A3
350
4B
  3
A4
350
4C
  3
A5
350
4D
  3
A6
350
4E
  3
A7
350
4F
  3
A8
350
50
  3
A9
350
51
  3
B0
350
52
  3
B1
350
53
  3
B2
350
54
  3
B3
350
55
  3
B4
350
56
  3
B5
350
57
  3
B6
350
58
  3
B7
350
59
  3
B8
350
5A
  3
B9
350
5B
  3
C0
350
5C
  3
C1
350
5D
  3
C2
350
5E
  3
C3
350
5F
  3
C4
350
60
  3
C5
350
61
  3
C6
350
62
  3
C7
350
63
  3
C8
350
64
  3
C9
350
65
  3
D0
350
66
  3
D1
350
67
  3
D2
350
68
  0
LAYOUT
  5
1E
102
{ACAD_REACTORS
330
1A
102
}
330
1A
100
AcDbPlotSettings
  1

  2
none_device
  4

  6

 40
0.0
 41
0.0
 42
0.0
 43
0.0
 44
0.0
 45
0.0
 46
0.0
 47
0.0
 48
0.0
 49
0.0
140
0.0
141
0.0
142
1.0
143
1.0
 70
   688
 72
     1
 73
     0
 74
     5
  7

 75
    16
147
1.0
148
0.0
149
0.0
100
AcDbLayout
  1
Layout1
 70
     1
 71
     1
 10
0.0
 20
0.0
 11
420.0
 21
297.0
 12
0.0
 22
0.0
 32
0.0
 14
1.0000000000E+20
 24
1.0000000000E+20
 34
1.0000000000E+20
 15
-1.0000000000E+20
 25
-1.0000000000E+20
 35
-1.0000000000E+20
146
0.0
 13
0.0
 23
0.0
 33
0.0
 16
1.0
 26
0.0
 36
0.0
 17
0.0
 27
1.0
 37
0.0
 76
     0
330
1B
  0
LAYOUT
  5
26
102
{ACAD_REACTORS
330
1A
102
}
330
1A
100
AcDbPlotSettings
  1

  2
none_device
  4

  6

 40
0.0
 41
0.0
 42
0.0
 43
0.0
 44
0.0
 45
0.0
 46
0.0
 47
0.0
 48
0.0
 49
0.0
140
0.0
141
0.0
142
1.0
143
1.0
 70
   688
 72
     1
 73
     0
 74
     5
  7

 75
    16
147
1.0
148
0.0
149
0.0
100
AcDbLayout
  1
Layout2
 70
     1
 71
     2
 10
0.0
 20
0.0
 11
0.0
 21
0.0
 12
0.0
 22
0.0
 32
0.0
 14
0.0
 24
0.0
 34
0.0
 15
0.0
 25
0.0
 35
0.0
146
0.0
 13
0.0
 23
0.0
 33
0.0
 16
1.0
 26
0.0
 36
0.0
 17
0.0
 27
1.0
 37
0.0
 76
     0
330
23
  0
LAYOUT
  5
22
102
{ACAD_REACTORS
330
1A
102
}
330
1A
100
AcDbPlotSettings
  1

  2
none_device
  4
Letter_(8.50_x_11.00_Inches)
  6

 40
6.35
 41
6.35
 42
6.35000508
 43
6.35000508
 44
215.9
 45
279.4
 46
0.0
 47
0.0
 48
0.0
 49
0.0
140
0.0
141
0.0
142
1.0
143
1.0
 70
  1712
 72
     1
 73
     0
 74
     0
  7

 75
     0
147
1.0
148
0.0
149
0.0
100
AcDbLayout
  1
Model
 70
     1
 71
     0
 10
0.0
 20
0.0
 11
279.4
 21
215.9
 12
0.0
 22
0.0
 32
0.0
 14
0.0
 24
0.0
 34
0.0
 15
279.4
 25
215.9
 35
0.0
146
0.0
 13
0.0
 23
0.0
 33
0.0
 16
1.0
 26
0.0
 36
0.0
 17
0.0
 27
1.0
 37
0.0
 76
     0
330
1F
331
29
  0
MLINESTYLE
  5
18
102
{ACAD_REACTORS
330
17
102
}
330
17
100
AcDbMlineStyle
  2
Standard
 70
     0
  3

 62
   256
 51
90.0
 52
90.0
 71
     2
 49
0.5
 62
   256
  6
BYLAYER
 49
-0.5
 62
   256
  6
BYLAYER
  0
ACDBPLACEHOLDER
  5
F
102
{ACAD_REACTORS
330
E
102
}
330
E
  0
SCALE
  5
48
102
{ACAD_REACTORS
330
47
102
}
330
47
100
AcDbScale
 70
     0
300
1:1
140
1.0
141
1.0
290
     1
  0
SCALE
  5
49
102
{ACAD_REACTORS
330
47
102
}
330
47
100
AcDbScale
 70
     0
300
1:2
140
1.0
141
2.0
290
     0
  0
SCALE
  5
4A
102
{ACAD_REACTORS
330
47
102
}
330
47
100
AcDbScale
 70
     0
300
1:4
140
1.0
141
4.0
290
     0
  0
SCALE
  5
4B
102
{ACAD_REACTORS
330
47
102
}
330
47
100
AcDbScale
 70
     0
300
1:5
140
1.0
141
5.0
290
     0
  0
SCALE
  5
4C
102
{ACAD_REACTORS
330
47
102
}
330
47
100
AcDbScale
 70
     0
300
1:8
140
1.0
141
8.0
290
     0
  0
SCALE
  5
4D
102
{ACAD_REACTORS
330
47
102
}
330
47
100
AcDbScale
 70
     0
300
1:10
140
1.0
141
10.0
290
     0
  0
SCALE
  5
4E
102
{ACAD_REACTORS
330
47
102
}
330
47
100
AcDbScale
 70
     0
300
1:16
140
1.0
141
16.0
290
     0
  0
SCALE
  5
4F
102
{ACAD_REACTORS
330
47
102
}
330
47
100
AcDbScale
 70
     0
300
1:20
140
1.0
141
20.0
290
     0
  0
SCALE
  5
50
102
{ACAD_REACTORS
330
47
102
}
330
47
100
AcDbScale
 70
     0
300
1:30
140
1.0
141
30.0
290
     0
  0
SCALE
  5
51
102
{ACAD_REACTORS
330
47
102
}
330
47
100
AcDbScale
 70
     0
300
1:40
140
1.0
141
40.0
290
     0
  0
SCALE
  5
52
102
{ACAD_REACTORS
330
47
102
}
330
47
100
AcDbScale
 70
     0
300
1:50
140
1.0
141
50.0
290
     0
  0
SCALE
  5
53
102
{ACAD_REACTORS
330
47
102
}
330
47
100
AcDbScale
 70
     0
300
1:100
140
1.0
141
100.0
290
     0
  0
SCALE
  5
54
102
{ACAD_REACTORS
330
47
102
}
330
47
100
AcDbScale
 70
     0
300
2:1
140
2.0
141
1.0
290
     0
  0
SCALE
  5
55
102
{ACAD_REACTORS
330
47
102
}
330
47
100
AcDbScale
 70
     0
300
4:1
140
4.0
141
1.0
290
     0
  0
SCALE
  5
56
102
{ACAD_REACTORS
330
47
102
}
330
47
100
AcDbScale
 70
     0
300
8:1
140
8.0
141
1.0
290
     0
  0
SCALE
  5
57
102
{ACAD_REACTORS
330
47
102
}
330
47
100
AcDbScale
 70
     0
300
10:1
140
10.0
141
1.0
290
     0
  0
SCALE
  5
58
102
{ACAD_REACTORS
330
47
102
}
330
47
100
AcDbScale
 70
     0
300
100:1
140
100.0
141
1.0
290
     0
  0
SCALE
  5
59
102
{ACAD_REACTORS
330
47
102
}
330
47
100
AcDbScale
 70
     0
300
1/128" = 1'-0"
140
0.0078125
141
12.0
290
     0
  0
SCALE
  5
5A
102
{ACAD_REACTORS
330
47
102
}
330
47
100
AcDbScale
 70
     0
300
1/64" = 1'-0"
140
0.015625
141
12.0
290
     0
  0
SCALE
  5
5B
102
{ACAD_REACTORS
330
47
102
}
330
47
100
AcDbScale
 70
     0
300
1/32" = 1'-0"
140
0.03125
141
12.0
290
     0
  0
SCALE
  5
5C
102
{ACAD_REACTORS
330
47
102
}
330
47
100
AcDbScale
 70
     0
300
1/16" = 1'-0"
140
0.0625
141
12.0
290
     0
  0
SCALE
  5
5D
102
{ACAD_REACTORS
330
47
102
}
330
47
100
AcDbScale
 70
     0
300
3/32" = 1'-0"
140
0.09375
141
12.0
290
     0
  0
SCALE
  5
5E
102
{ACAD_REACTORS
330
47
102
}
330
47
100
AcDbScale
 70
     0
300
1/8" = 1'-0"
140
0.125
141
12.0
290
     0
  0
SCALE
  5
5F
102
{ACAD_REACTORS
330
47
102
}
330
47
100
AcDbScale
 70
     0
300
3/16" = 1'-0"
140
0.1875
141
12.0
290
     0
  0
SCALE
  5
60
102
{ACAD_REACTORS
330
47
102
}
330
47
100
AcDbScale
 70
     0
300
1/4" = 1'-0"
140
0.25
141
12.0
290
     0
  0
SCALE
  5
61
102
{ACAD_REACTORS
330
47
102
}
330
47
100
AcDbScale
 70
     0
300
3/8" = 1'-0"
140
0.375
141
12.0
290
     0
  0
SCALE
  5
62
102
{ACAD_REACTORS
330
47
102
}
330
47
100
AcDbScale
 70
     0
300
1/2" = 1'-0"
140
0.5
141
12.0
290
     0
  0
SCALE
  5
63
102
{ACAD_REACTORS
330
47
102
}
330
47
100
AcDbScale
 70
     0
300
3/4" = 1'-0"
140
0.75
141
12.0
290
     0
  0
SCALE
  5
64
102
{ACAD_REACTORS
330
47
102
}
330
47
100
AcDbScale
 70
     0
300
1" = 1'-0"
140
1.0
141
12.0
290
     0
  0
SCALE
  5
65
102
{ACAD_REACTORS
330
47
102
}
330
47
100
AcDbScale
 70
     0
300
1-1/2" = 1'-0"
140
1.5
141
12.0
290
     0
  0
SCALE
  5
66
102
{ACAD_REACTORS
330
47
102
}
330
47
100
AcDbScale
 70
     0
300
3" = 1'-0"
140
3.0
141
12.0
290
     0
  0
SCALE
  5
67
102
{ACAD_REACTORS
330
47
102
}
330
47
100
AcDbScale
 70
     0
300
6" = 1'-0"
140
6.0
141
12.0
290
     0
  0
SCALE
  5
68
102
{ACAD_REACTORS
330
47
102
}
330
47
100
AcDbScale
 70
     0
300
1'-0" = 1'-0"
140
12.0
141
12.0
290
     0
  0
ENDSEC
  0
EOF
